ISO-10303-21;
HEADER;
FILE_DESCRIPTION (( 'STEP AP203' ),
    '1' );
FILE_NAME ('MgF2-MIRQWP-12.7-3500-M.STEP',
    '2020-12-23T01:29:10',
    ( '' ),
    ( '' ),
    'SwSTEP 2.0',
    'SolidWorks 2020',
    '' );
FILE_SCHEMA (( 'CONFIG_CONTROL_DESIGN' ));
ENDSEC;

DATA;
#1 = CARTESIAN_POINT ( 'NONE',  ( -1.614212418857619014, 0.000000000000000000, 0.000000000000000000 ) ) ;
#2 = CYLINDRICAL_SURFACE ( 'NONE', #93, 6.349999999999999645 ) ;
#3 = ORIENTED_EDGE ( 'NONE', *, *, #210, .T. ) ;
#4 = FACE_OUTER_BOUND ( 'NONE', #143, .T. ) ;
#5 = EDGE_LOOP ( 'NONE', ( #274, #224 ) ) ;
#6 = CARTESIAN_POINT ( 'NONE',  ( -2.999999999999999556, 0.000000000000000000, 6.349999999999999645 ) ) ;
#7 = CC_DESIGN_APPROVAL ( #184, ( #107 ) ) ;
#8 = EDGE_CURVE ( 'NONE', #52, #9, #33, .T. ) ;
#9 = VERTEX_POINT ( 'NONE', #89 ) ;
#10 = DIRECTION ( 'NONE',  ( -1.000000000000000000, -0.000000000000000000, -0.000000000000000000 ) ) ;
#11 = ORIENTED_EDGE ( 'NONE', *, *, #105, .T. ) ;
#12 = DATE_AND_TIME ( #253, #298 ) ;
#13 = AXIS2_PLACEMENT_3D ( 'NONE', #320, #296, #55 ) ;
#14 = DATE_AND_TIME ( #178, #147 ) ;
#15 = CC_DESIGN_PERSON_AND_ORGANIZATION_ASSIGNMENT ( #70, #121, ( #117 ) ) ;
#16 = CARTESIAN_POINT ( 'NONE',  ( 1.500000000000000888, 0.000000000000000000, 0.000000000000000000 ) ) ;
#17 = CALENDAR_DATE ( 2020, 23, 12 ) ;
#18 = APPROVAL_ROLE ( '' ) ;
#19 = AXIS2_PLACEMENT_3D ( 'NONE', #57, #201, #137 ) ;
#20 = CC_DESIGN_DATE_AND_TIME_ASSIGNMENT ( #208, #182, ( #97 ) ) ;
#21 = PLANE ( 'NONE',  #199 ) ;
#22 = EDGE_CURVE ( 'NONE', #295, #114, #240, .T. ) ;
#23 = CARTESIAN_POINT ( 'NONE',  ( 1.500000000000000888, 0.000000000000000000, 6.349999999999999645 ) ) ;
#24 = LOCAL_TIME ( 9, 29, 10.00000000000000000, #38 ) ;
#25 = AXIS2_PLACEMENT_3D ( 'NONE', #313, #218, #101 ) ;
#26 = DIRECTION ( 'NONE',  ( 1.000000000000000000, 0.000000000000000000, 0.000000000000000000 ) ) ;
#27 = DIRECTION ( 'NONE',  ( -1.000000000000000000, -0.000000000000000000, -0.000000000000000000 ) ) ;
#28 = CIRCLE ( 'NONE', #74, 12.69999999999999929 ) ;
#29 = FACE_OUTER_BOUND ( 'NONE', #5, .T. ) ;
#30 = ORIENTED_EDGE ( 'NONE', *, *, #8, .T. ) ;
#31 = ORIENTED_EDGE ( 'NONE', *, *, #22, .T. ) ;
#32 = CARTESIAN_POINT ( 'NONE',  ( 1.500000000000000444, 6.349999999999999645, 0.000000000000000000 ) ) ;
#33 = LINE ( 'NONE', #116, #65 ) ;
#34 = EDGE_CURVE ( 'NONE', #58, #252, #211, .T. ) ;
#35 = ORIENTED_EDGE ( 'NONE', *, *, #289, .T. ) ;
#36 = CIRCLE ( 'NONE', #332, 6.349999999999999645 ) ;
#37 = ORIENTED_EDGE ( 'NONE', *, *, #49, .T. ) ;
#38 = COORDINATED_UNIVERSAL_TIME_OFFSET ( 8, 0, .AHEAD. ) ;
#39 = DIRECTION ( 'NONE',  ( 0.000000000000000000, 0.000000000000000000, -1.000000000000000000 ) ) ;
#40 = PERSON_AND_ORGANIZATION ( #119, #158 ) ;
#41 = DIRECTION ( 'NONE',  ( 1.000000000000000000, 0.000000000000000000, 0.000000000000000000 ) ) ;
#42 = APPROVAL_STATUS ( 'not_yet_approved' ) ;
#43 = EDGE_CURVE ( 'NONE', #114, #56, #261, .T. ) ;
#44 = APPROVAL_DATE_TIME ( #310, #269 ) ;
#45 = EDGE_CURVE ( 'NONE', #120, #196, #191, .T. ) ;
#46 = CARTESIAN_POINT ( 'NONE',  ( -1.614212418857619014, 0.000000000000000000, 12.69999999999999929 ) ) ;
#47 = CC_DESIGN_PERSON_AND_ORGANIZATION_ASSIGNMENT ( #99, #230, ( #107 ) ) ;
#48 = DIRECTION ( 'NONE',  ( -1.000000000000000000, -0.000000000000000000, -0.000000000000000000 ) ) ;
#49 = EDGE_CURVE ( 'NONE', #252, #58, #186, .T. ) ;
#50 = CARTESIAN_POINT ( 'NONE',  ( 3.000000000000000888, 0.000000000000000000, 0.000000000000000000 ) ) ;
#51 = CARTESIAN_POINT ( 'NONE',  ( -1.614212418857619014, 0.000000000000000000, 0.000000000000000000 ) ) ;
#52 = VERTEX_POINT ( 'NONE', #104 ) ;
#53 = EDGE_LOOP ( 'NONE', ( #138, #197 ) ) ;
#54 = CIRCLE ( 'NONE', #102, 6.349999999999999645 ) ;
#55 = DIRECTION ( 'NONE',  ( 0.000000000000000000, 0.000000000000000000, 1.000000000000000000 ) ) ;
#56 = VERTEX_POINT ( 'NONE', #333 ) ;
#57 = CARTESIAN_POINT ( 'NONE',  ( 3.000000000000000000, 0.000000000000000000, 0.000000000000000000 ) ) ;
#58 = VERTEX_POINT ( 'NONE', #217 ) ;
#59 = DESIGN_CONTEXT ( 'detailed design', #188, 'design' ) ;
#60 = FACE_OUTER_BOUND ( 'NONE', #81, .T. ) ;
#61 = CARTESIAN_POINT ( 'NONE',  ( -1.500000000000000444, 0.000000000000000000, 0.000000000000000000 ) ) ;
#62 = CARTESIAN_POINT ( 'NONE',  ( 0.000000000000000000, 0.000000000000000000, 0.000000000000000000 ) ) ;
#63 = APPROVAL_PERSON_ORGANIZATION ( #286, #269, #258 ) ;
#64 = ORIENTED_EDGE ( 'NONE', *, *, #291, .T. ) ;
#65 = VECTOR ( 'NONE', #324, 1000.000000000000000 ) ;
#66 = CIRCLE ( 'NONE', #189, 12.69999999999999929 ) ;
#67 = APPROVAL_STATUS ( 'not_yet_approved' ) ;
#68 = COORDINATED_UNIVERSAL_TIME_OFFSET ( 8, 0, .AHEAD. ) ;
#69 = ADVANCED_FACE ( 'NONE', ( #157 ), #335, .F. ) ;
#70 = PERSON_AND_ORGANIZATION ( #119, #158 ) ;
#71 = APPLICATION_CONTEXT ( 'configuration controlled 3d designs of mechanical parts and assemblies' ) ;
#72 = PERSON_AND_ORGANIZATION_ROLE ( 'design_supplier' ) ;
#73 = CARTESIAN_POINT ( 'NONE',  ( -1.614212418857619014, 0.000000000000000000, 0.000000000000000000 ) ) ;
#74 = AXIS2_PLACEMENT_3D ( 'NONE', #82, #10, #166 ) ;
#75 = FACE_OUTER_BOUND ( 'NONE', #304, .T. ) ;
#76 = ADVANCED_FACE ( 'NONE', ( #267, #75 ), #21, .F. ) ;
#77 = DIRECTION ( 'NONE',  ( 0.000000000000000000, 0.000000000000000000, -1.000000000000000000 ) ) ;
#78 = AXIS2_PLACEMENT_3D ( 'NONE', #16, #96, #155 ) ;
#79 = CC_DESIGN_PERSON_AND_ORGANIZATION_ASSIGNMENT ( #214, #180, ( #97 ) ) ;
#80 = PLANE ( 'NONE',  #329 ) ;
#81 = EDGE_LOOP ( 'NONE', ( #140, #11, #301, #228 ) ) ;
#82 = CARTESIAN_POINT ( 'NONE',  ( -3.000000000000000000, 0.000000000000000000, 0.000000000000000000 ) ) ;
#83 = ORIENTED_EDGE ( 'NONE', *, *, #328, .F. ) ;
#84 = AXIS2_PLACEMENT_3D ( 'NONE', #243, #27, #108 ) ;
#85 = APPROVAL_PERSON_ORGANIZATION ( #40, #195, #18 ) ;
#86 = CYLINDRICAL_SURFACE ( 'NONE', #254, 12.69999999999999929 ) ;
#87 = ORIENTED_EDGE ( 'NONE', *, *, #210, .F. ) ;
#88 = CARTESIAN_POINT ( 'NONE',  ( -1.500000000000000444, 6.349999999999999645, 0.000000000000000000 ) ) ;
#89 = CARTESIAN_POINT ( 'NONE',  ( -3.000000000000000000, 1.555301434917138433E-15, -12.69999999999999929 ) ) ;
#90 = CARTESIAN_POINT ( 'NONE',  ( -2.999999999999999556, 0.000000000000000000, 0.000000000000000000 ) ) ;
#91 = EDGE_LOOP ( 'NONE', ( #31, #168, #297, #249 ) ) ;
#92 = CARTESIAN_POINT ( 'NONE',  ( -1.614212418857619014, 0.000000000000000000, 0.000000000000000000 ) ) ;
#93 = AXIS2_PLACEMENT_3D ( 'NONE', #1, #198, #110 ) ;
#94 = AXIS2_PLACEMENT_3D ( 'NONE', #62, #305, #256 ) ;
#95 = CARTESIAN_POINT ( 'NONE',  ( -1.614212418857619014, 7.776507174585692163E-16, -6.349999999999999645 ) ) ;
#96 = DIRECTION ( 'NONE',  ( -1.000000000000000000, -0.000000000000000000, -0.000000000000000000 ) ) ;
#97 = SECURITY_CLASSIFICATION ( '', '', #280 ) ;
#98 = VECTOR ( 'NONE', #151, 1000.000000000000000 ) ;
#99 = PERSON_AND_ORGANIZATION ( #119, #158 ) ;
#100 = FACE_OUTER_BOUND ( 'NONE', #242, .T. ) ;
#101 = DIRECTION ( 'NONE',  ( 0.000000000000000000, 0.000000000000000000, 1.000000000000000000 ) ) ;
#102 = AXIS2_PLACEMENT_3D ( 'NONE', #90, #204, #303 ) ;
#103 = APPROVAL_PERSON_ORGANIZATION ( #206, #184, #209 ) ;
#104 = CARTESIAN_POINT ( 'NONE',  ( 3.000000000000000000, 1.555301434917138433E-15, -12.69999999999999929 ) ) ;
#105 = EDGE_CURVE ( 'NONE', #252, #196, #331, .T. ) ;
#106 = CARTESIAN_POINT ( 'NONE',  ( -1.614212418857619014, 0.000000000000000000, 6.349999999999999645 ) ) ;
#107 = PRODUCT_DEFINITION ( 'UNKNOWN', '', #239, #59 ) ;
#108 = DIRECTION ( 'NONE',  ( 0.000000000000000000, 0.000000000000000000, 1.000000000000000000 ) ) ;
#109 = ORIENTED_EDGE ( 'NONE', *, *, #159, .T. ) ;
#110 = DIRECTION ( 'NONE',  ( 0.000000000000000000, 0.000000000000000000, 1.000000000000000000 ) ) ;
#111 = EDGE_LOOP ( 'NONE', ( #299, #276, #167, #3 ) ) ;
#112 = CARTESIAN_POINT ( 'NONE',  ( 3.000000000000000000, 12.69999999999999929, 0.000000000000000000 ) ) ;
#113 = CC_DESIGN_PERSON_AND_ORGANIZATION_ASSIGNMENT ( #181, #288, ( #239 ) ) ;
#114 = VERTEX_POINT ( 'NONE', #128 ) ;
#115 = DIRECTION ( 'NONE',  ( -1.000000000000000000, -0.000000000000000000, -0.000000000000000000 ) ) ;
#116 = CARTESIAN_POINT ( 'NONE',  ( -1.614212418857619014, 1.555301434917138433E-15, -12.69999999999999929 ) ) ;
#117 = PRODUCT ( 'MgF2-MIRQWP-12.7-3500-M', 'MgF2-MIRQWP-12.7-3500-M', '', ( #309 ) ) ;
#118 = FACE_OUTER_BOUND ( 'NONE', #326, .T. ) ;
#119 = PERSON ( 'UNSPECIFIED', 'UNSPECIFIED', 'UNSPECIFIED', ('UNSPECIFIED'), ('UNSPECIFIED'), ('UNSPECIFIED') ) ;
#120 = VERTEX_POINT ( 'NONE', #23 ) ;
#121 = PERSON_AND_ORGANIZATION_ROLE ( 'design_owner' ) ;
#122 = APPROVAL_DATE_TIME ( #12, #184 ) ;
#123 = AXIS2_PLACEMENT_3D ( 'NONE', #50, #48, #160 ) ;
#124 = CARTESIAN_POINT ( 'NONE',  ( -1.500000000000000444, 0.000000000000000000, 0.000000000000000000 ) ) ;
#125 = EDGE_CURVE ( 'NONE', #114, #295, #36, .T. ) ;
#126 = CARTESIAN_POINT ( 'NONE',  ( -3.000000000000000000, 0.000000000000000000, 0.000000000000000000 ) ) ;
#127 = DIRECTION ( 'NONE',  ( 0.000000000000000000, 0.000000000000000000, 1.000000000000000000 ) ) ;
#128 = CARTESIAN_POINT ( 'NONE',  ( -1.500000000000000444, 7.776507174585692163E-16, -6.349999999999999645 ) ) ;
#129 = CARTESIAN_POINT ( 'NONE',  ( -3.000000000000000000, 0.000000000000000000, 12.69999999999999929 ) ) ;
#130 = EDGE_CURVE ( 'NONE', #319, #144, #236, .T. ) ;
#131 = UNCERTAINTY_MEASURE_WITH_UNIT (LENGTH_MEASURE( 1.000000000000000082E-05 ), #282, 'distance_accuracy_value', 'NONE');
#132 = CYLINDRICAL_SURFACE ( 'NONE', #190, 6.349999999999999645 ) ;
#133 = AXIS2_PLACEMENT_3D ( 'NONE', #219, #241, #163 ) ;
#134 = DIRECTION ( 'NONE',  ( -1.000000000000000000, -0.000000000000000000, -0.000000000000000000 ) ) ;
#135 = ORIENTED_EDGE ( 'NONE', *, *, #250, .T. ) ;
#136 = CC_DESIGN_DATE_AND_TIME_ASSIGNMENT ( #307, #176, ( #107 ) ) ;
#137 = DIRECTION ( 'NONE',  ( 0.000000000000000000, 0.000000000000000000, 1.000000000000000000 ) ) ;
#138 = ORIENTED_EDGE ( 'NONE', *, *, #45, .F. ) ;
#139 = DIRECTION ( 'NONE',  ( -0.000000000000000000, 0.000000000000000000, 1.000000000000000000 ) ) ;
#140 = ORIENTED_EDGE ( 'NONE', *, *, #49, .F. ) ;
#141 = LINE ( 'NONE', #227, #271 ) ;
#142 = CLOSED_SHELL ( 'NONE', ( #171, #161, #203, #266, #69, #334, #76, #318, #259, #285 ) ) ;
#143 = EDGE_LOOP ( 'NONE', ( #202, #220 ) ) ;
#144 = VERTEX_POINT ( 'NONE', #129 ) ;
#145 = EDGE_CURVE ( 'NONE', #295, #279, #185, .T. ) ;
#146 = COORDINATED_UNIVERSAL_TIME_OFFSET ( 8, 0, .AHEAD. ) ;
#147 = LOCAL_TIME ( 9, 29, 10.00000000000000000, #68 ) ;
#148 = CARTESIAN_POINT ( 'NONE',  ( 3.000000000000000888, 0.000000000000000000, 0.000000000000000000 ) ) ;
#149 = VECTOR ( 'NONE', #216, 1000.000000000000000 ) ;
#150 =( NAMED_UNIT ( * ) SI_UNIT ( $, .STERADIAN. ) SOLID_ANGLE_UNIT ( ) );
#151 = DIRECTION ( 'NONE',  ( -1.000000000000000000, -0.000000000000000000, -0.000000000000000000 ) ) ;
#152 = CALENDAR_DATE ( 2020, 23, 12 ) ;
#153 = PERSON_AND_ORGANIZATION ( #119, #158 ) ;
#154 = LOCAL_TIME ( 9, 29, 10.00000000000000000, #213 ) ;
#155 = DIRECTION ( 'NONE',  ( 0.000000000000000000, 0.000000000000000000, 1.000000000000000000 ) ) ;
#156 = DIRECTION ( 'NONE',  ( -1.000000000000000000, -0.000000000000000000, -0.000000000000000000 ) ) ;
#157 = FACE_OUTER_BOUND ( 'NONE', #162, .T. ) ;
#158 = ORGANIZATION ( 'UNSPECIFIED', 'UNSPECIFIED', '' ) ;
#159 = EDGE_CURVE ( 'NONE', #9, #144, #66, .T. ) ;
#160 = DIRECTION ( 'NONE',  ( 0.000000000000000000, 0.000000000000000000, 1.000000000000000000 ) ) ;
#161 = ADVANCED_FACE ( 'NONE', ( #315 ), #293, .F. ) ;
#162 = EDGE_LOOP ( 'NONE', ( #278, #172, #64, #164 ) ) ;
#163 = DIRECTION ( 'NONE',  ( 0.000000000000000000, 0.000000000000000000, 1.000000000000000000 ) ) ;
#164 = ORIENTED_EDGE ( 'NONE', *, *, #45, .T. ) ;
#165 = AXIS2_PLACEMENT_3D ( 'NONE', #32, #317, #139 ) ;
#166 = DIRECTION ( 'NONE',  ( 0.000000000000000000, 0.000000000000000000, 1.000000000000000000 ) ) ;
#167 = ORIENTED_EDGE ( 'NONE', *, *, #145, .T. ) ;
#168 = ORIENTED_EDGE ( 'NONE', *, *, #43, .T. ) ;
#169 = DIRECTION ( 'NONE',  ( 1.000000000000000000, 0.000000000000000000, 0.000000000000000000 ) ) ;
#170 = AXIS2_PLACEMENT_3D ( 'NONE', #73, #134, #294 ) ;
#171 = ADVANCED_FACE ( 'NONE', ( #100 ), #311, .T. ) ;
#172 = ORIENTED_EDGE ( 'NONE', *, *, #34, .F. ) ;
#173 = APPLICATION_PROTOCOL_DEFINITION ( 'international standard', 'config_control_design', 1994, #188 ) ;
#174 =( NAMED_UNIT ( * ) PLANE_ANGLE_UNIT ( ) SI_UNIT ( $, .RADIAN. ) );
#175 = EDGE_CURVE ( 'NONE', #319, #52, #238, .T. ) ;
#176 = DATE_TIME_ROLE ( 'creation_date' ) ;
#177 = CC_DESIGN_SECURITY_CLASSIFICATION ( #97, ( #239 ) ) ;
#178 = CALENDAR_DATE ( 2020, 23, 12 ) ;
#179 = DIRECTION ( 'NONE',  ( 0.000000000000000000, 0.000000000000000000, 1.000000000000000000 ) ) ;
#180 = PERSON_AND_ORGANIZATION_ROLE ( 'classification_officer' ) ;
#181 = PERSON_AND_ORGANIZATION ( #119, #158 ) ;
#182 = DATE_TIME_ROLE ( 'classification_date' ) ;
#183 = AXIS2_PLACEMENT_3D ( 'NONE', #88, #169, #277 ) ;
#184 = APPROVAL ( #67, 'UNSPECIFIED' ) ;
#185 = LINE ( 'NONE', #106, #192 ) ;
#186 = CIRCLE ( 'NONE', #123, 6.349999999999999645 ) ;
#187 = DIRECTION ( 'NONE',  ( 0.000000000000000000, 0.000000000000000000, -1.000000000000000000 ) ) ;
#188 = APPLICATION_CONTEXT ( 'configuration controlled 3d designs of mechanical parts and assemblies' ) ;
#189 = AXIS2_PLACEMENT_3D ( 'NONE', #126, #156, #127 ) ;
#190 = AXIS2_PLACEMENT_3D ( 'NONE', #92, #207, #179 ) ;
#191 = CIRCLE ( 'NONE', #78, 6.349999999999999645 ) ;
#192 = VECTOR ( 'NONE', #193, 1000.000000000000000 ) ;
#193 = DIRECTION ( 'NONE',  ( -1.000000000000000000, -0.000000000000000000, -0.000000000000000000 ) ) ;
#194 = PLANE ( 'NONE',  #165 ) ;
#195 = APPROVAL ( #257, 'UNSPECIFIED' ) ;
#196 = VERTEX_POINT ( 'NONE', #300 ) ;
#197 = ORIENTED_EDGE ( 'NONE', *, *, #314, .F. ) ;
#198 = DIRECTION ( 'NONE',  ( -1.000000000000000000, -0.000000000000000000, -0.000000000000000000 ) ) ;
#199 = AXIS2_PLACEMENT_3D ( 'NONE', #265, #235, #187 ) ;
#200 = EDGE_LOOP ( 'NONE', ( #246, #37 ) ) ;
#201 = DIRECTION ( 'NONE',  ( -1.000000000000000000, -0.000000000000000000, -0.000000000000000000 ) ) ;
#202 = ORIENTED_EDGE ( 'NONE', *, *, #22, .F. ) ;
#203 = ADVANCED_FACE ( 'NONE', ( #60 ), #2, .F. ) ;
#204 = DIRECTION ( 'NONE',  ( -1.000000000000000000, -0.000000000000000000, -0.000000000000000000 ) ) ;
#205 = ORIENTED_EDGE ( 'NONE', *, *, #8, .F. ) ;
#206 = PERSON_AND_ORGANIZATION ( #119, #158 ) ;
#207 = DIRECTION ( 'NONE',  ( -1.000000000000000000, -0.000000000000000000, -0.000000000000000000 ) ) ;
#208 = DATE_AND_TIME ( #308, #263 ) ;
#209 = APPROVAL_ROLE ( '' ) ;
#210 = EDGE_CURVE ( 'NONE', #279, #56, #262, .T. ) ;
#211 = CIRCLE ( 'NONE', #247, 6.349999999999999645 ) ;
#212 = COORDINATED_UNIVERSAL_TIME_OFFSET ( 8, 0, .AHEAD. ) ;
#213 = COORDINATED_UNIVERSAL_TIME_OFFSET ( 8, 0, .AHEAD. ) ;
#214 = PERSON_AND_ORGANIZATION ( #119, #158 ) ;
#215 = CC_DESIGN_PERSON_AND_ORGANIZATION_ASSIGNMENT ( #153, #72, ( #239 ) ) ;
#216 = DIRECTION ( 'NONE',  ( -1.000000000000000000, -0.000000000000000000, -0.000000000000000000 ) ) ;
#217 = CARTESIAN_POINT ( 'NONE',  ( 3.000000000000000888, 0.000000000000000000, 6.349999999999999645 ) ) ;
#218 = DIRECTION ( 'NONE',  ( -1.000000000000000000, -0.000000000000000000, -0.000000000000000000 ) ) ;
#219 = CARTESIAN_POINT ( 'NONE',  ( 3.000000000000000000, 0.000000000000000000, 0.000000000000000000 ) ) ;
#220 = ORIENTED_EDGE ( 'NONE', *, *, #125, .F. ) ;
#221 = FACE_OUTER_BOUND ( 'NONE', #53, .T. ) ;
#222 = EDGE_LOOP ( 'NONE', ( #87, #83 ) ) ;
#223 = PLANE ( 'NONE',  #183 ) ;
#224 = ORIENTED_EDGE ( 'NONE', *, *, #250, .F. ) ;
#225 = DIRECTION ( 'NONE',  ( -1.000000000000000000, 0.000000000000000000, -0.000000000000000000 ) ) ;
#226 = ORIENTED_EDGE ( 'NONE', *, *, #159, .F. ) ;
#227 = CARTESIAN_POINT ( 'NONE',  ( -1.614212418857619014, 0.000000000000000000, 6.349999999999999645 ) ) ;
#228 = ORIENTED_EDGE ( 'NONE', *, *, #291, .F. ) ;
#229 = AXIS2_PLACEMENT_3D ( 'NONE', #51, #264, #330 ) ;
#230 = PERSON_AND_ORGANIZATION_ROLE ( 'creator' ) ;
#231 = DIRECTION ( 'NONE',  ( 0.000000000000000000, 0.000000000000000000, 1.000000000000000000 ) ) ;
#232 = DIRECTION ( 'NONE',  ( -1.000000000000000000, -0.000000000000000000, -0.000000000000000000 ) ) ;
#233 = CARTESIAN_POINT ( 'NONE',  ( -1.614212418857619014, 7.776507174585692163E-16, -6.349999999999999645 ) ) ;
#234 =( GEOMETRIC_REPRESENTATION_CONTEXT ( 3 ) GLOBAL_UNCERTAINTY_ASSIGNED_CONTEXT ( ( #131 ) ) GLOBAL_UNIT_ASSIGNED_CONTEXT ( ( #282, #174, #150 ) ) REPRESENTATION_CONTEXT ( 'NONE', 'WORKASPACE' ) );
#235 = DIRECTION ( 'NONE',  ( 1.000000000000000000, 0.000000000000000000, 0.000000000000000000 ) ) ;
#236 = LINE ( 'NONE', #46, #292 ) ;
#237 = CARTESIAN_POINT ( 'NONE',  ( 3.000000000000000000, 0.000000000000000000, 12.69999999999999929 ) ) ;
#238 = CIRCLE ( 'NONE', #19, 12.69999999999999929 ) ;
#239 = PRODUCT_DEFINITION_FORMATION_WITH_SPECIFIED_SOURCE ( 'ANY', '', #117, .NOT_KNOWN. ) ;
#240 = CIRCLE ( 'NONE', #283, 6.349999999999999645 ) ;
#241 = DIRECTION ( 'NONE',  ( -1.000000000000000000, -0.000000000000000000, -0.000000000000000000 ) ) ;
#242 = EDGE_LOOP ( 'NONE', ( #272, #30, #316, #244 ) ) ;
#243 = CARTESIAN_POINT ( 'NONE',  ( -2.999999999999999556, 0.000000000000000000, 0.000000000000000000 ) ) ;
#244 = ORIENTED_EDGE ( 'NONE', *, *, #130, .F. ) ;
#245 = DIRECTION ( 'NONE',  ( -1.000000000000000000, -0.000000000000000000, -0.000000000000000000 ) ) ;
#246 = ORIENTED_EDGE ( 'NONE', *, *, #34, .T. ) ;
#247 = AXIS2_PLACEMENT_3D ( 'NONE', #148, #255, #231 ) ;
#248 = CARTESIAN_POINT ( 'NONE',  ( -1.500000000000000444, 0.000000000000000000, 6.349999999999999645 ) ) ;
#249 = ORIENTED_EDGE ( 'NONE', *, *, #145, .F. ) ;
#250 = EDGE_CURVE ( 'NONE', #52, #319, #290, .T. ) ;
#251 = APPLICATION_PROTOCOL_DEFINITION ( 'international standard', 'config_control_design', 1994, #71 ) ;
#252 = VERTEX_POINT ( 'NONE', #270 ) ;
#253 = CALENDAR_DATE ( 2020, 23, 12 ) ;
#254 = AXIS2_PLACEMENT_3D ( 'NONE', #325, #115, #323 ) ;
#255 = DIRECTION ( 'NONE',  ( -1.000000000000000000, -0.000000000000000000, -0.000000000000000000 ) ) ;
#256 = DIRECTION ( 'NONE',  ( 1.000000000000000000, 0.000000000000000000, 0.000000000000000000 ) ) ;
#257 = APPROVAL_STATUS ( 'not_yet_approved' ) ;
#258 = APPROVAL_ROLE ( '' ) ;
#259 = ADVANCED_FACE ( 'NONE', ( #29, #275 ), #80, .F. ) ;
#260 = ADVANCED_BREP_SHAPE_REPRESENTATION ( 'MgF2-MIRQWP-12.7-3500-M', ( #302, #94 ), #234 ) ;
#261 = LINE ( 'NONE', #95, #98 ) ;
#262 = CIRCLE ( 'NONE', #84, 6.349999999999999645 ) ;
#263 = LOCAL_TIME ( 9, 29, 10.00000000000000000, #212 ) ;
#264 = DIRECTION ( 'NONE',  ( -1.000000000000000000, -0.000000000000000000, -0.000000000000000000 ) ) ;
#265 = CARTESIAN_POINT ( 'NONE',  ( -3.000000000000000000, 6.349999999999999645, 0.000000000000000000 ) ) ;
#266 = ADVANCED_FACE ( 'NONE', ( #221 ), #194, .F. ) ;
#267 = FACE_BOUND ( 'NONE', #222, .T. ) ;
#268 = FACE_OUTER_BOUND ( 'NONE', #111, .T. ) ;
#269 = APPROVAL ( #42, 'UNSPECIFIED' ) ;
#270 = CARTESIAN_POINT ( 'NONE',  ( 3.000000000000000888, 7.776507174585692163E-16, -6.349999999999999645 ) ) ;
#271 = VECTOR ( 'NONE', #245, 1000.000000000000000 ) ;
#272 = ORIENTED_EDGE ( 'NONE', *, *, #175, .T. ) ;
#273 = DIRECTION ( 'NONE',  ( -0.000000000000000000, 0.000000000000000000, 1.000000000000000000 ) ) ;
#274 = ORIENTED_EDGE ( 'NONE', *, *, #175, .F. ) ;
#275 = FACE_BOUND ( 'NONE', #200, .T. ) ;
#276 = ORIENTED_EDGE ( 'NONE', *, *, #125, .T. ) ;
#277 = DIRECTION ( 'NONE',  ( 0.000000000000000000, 0.000000000000000000, -1.000000000000000000 ) ) ;
#278 = ORIENTED_EDGE ( 'NONE', *, *, #105, .F. ) ;
#279 = VERTEX_POINT ( 'NONE', #6 ) ;
#280 = SECURITY_CLASSIFICATION_LEVEL ( 'unclassified' ) ;
#281 = CC_DESIGN_APPROVAL ( #195, ( #97 ) ) ;
#282 =( LENGTH_UNIT ( ) NAMED_UNIT ( * ) SI_UNIT ( .MILLI., .METRE. ) );
#283 = AXIS2_PLACEMENT_3D ( 'NONE', #61, #41, #39 ) ;
#284 = APPROVAL_DATE_TIME ( #14, #195 ) ;
#285 = ADVANCED_FACE ( 'NONE', ( #4 ), #223, .F. ) ;
#286 = PERSON_AND_ORGANIZATION ( #119, #158 ) ;
#287 = SHAPE_DEFINITION_REPRESENTATION ( #327, #260 ) ;
#288 = PERSON_AND_ORGANIZATION_ROLE ( 'creator' ) ;
#289 = EDGE_CURVE ( 'NONE', #144, #9, #28, .T. ) ;
#290 = CIRCLE ( 'NONE', #133, 12.69999999999999929 ) ;
#291 = EDGE_CURVE ( 'NONE', #58, #120, #141, .T. ) ;
#292 = VECTOR ( 'NONE', #232, 1000.000000000000000 ) ;
#293 = CYLINDRICAL_SURFACE ( 'NONE', #229, 6.349999999999999645 ) ;
#294 = DIRECTION ( 'NONE',  ( 0.000000000000000000, 0.000000000000000000, 1.000000000000000000 ) ) ;
#295 = VERTEX_POINT ( 'NONE', #248 ) ;
#296 = DIRECTION ( 'NONE',  ( -1.000000000000000000, -0.000000000000000000, -0.000000000000000000 ) ) ;
#297 = ORIENTED_EDGE ( 'NONE', *, *, #328, .T. ) ;
#298 = LOCAL_TIME ( 9, 29, 10.00000000000000000, #146 ) ;
#299 = ORIENTED_EDGE ( 'NONE', *, *, #43, .F. ) ;
#300 = CARTESIAN_POINT ( 'NONE',  ( 1.500000000000000888, 7.776507174585692163E-16, -6.349999999999999645 ) ) ;
#301 = ORIENTED_EDGE ( 'NONE', *, *, #314, .T. ) ;
#302 = MANIFOLD_SOLID_BREP ( 'Ðý×', #142 ) ;
#303 = DIRECTION ( 'NONE',  ( 0.000000000000000000, 0.000000000000000000, 1.000000000000000000 ) ) ;
#304 = EDGE_LOOP ( 'NONE', ( #35, #109 ) ) ;
#305 = DIRECTION ( 'NONE',  ( 0.000000000000000000, 0.000000000000000000, 1.000000000000000000 ) ) ;
#306 = PRODUCT_RELATED_PRODUCT_CATEGORY ( 'detail', '', ( #117 ) ) ;
#307 = DATE_AND_TIME ( #152, #24 ) ;
#308 = CALENDAR_DATE ( 2020, 23, 12 ) ;
#309 = MECHANICAL_CONTEXT ( 'NONE', #71, 'mechanical' ) ;
#310 = DATE_AND_TIME ( #17, #154 ) ;
#311 = CYLINDRICAL_SURFACE ( 'NONE', #170, 12.69999999999999929 ) ;
#312 = CIRCLE ( 'NONE', #13, 6.349999999999999645 ) ;
#313 = CARTESIAN_POINT ( 'NONE',  ( -1.614212418857619014, 0.000000000000000000, 0.000000000000000000 ) ) ;
#314 = EDGE_CURVE ( 'NONE', #196, #120, #312, .T. ) ;
#315 = FACE_OUTER_BOUND ( 'NONE', #91, .T. ) ;
#316 = ORIENTED_EDGE ( 'NONE', *, *, #289, .F. ) ;
#317 = DIRECTION ( 'NONE',  ( -1.000000000000000000, 0.000000000000000000, -0.000000000000000000 ) ) ;
#318 = ADVANCED_FACE ( 'NONE', ( #118 ), #86, .T. ) ;
#319 = VERTEX_POINT ( 'NONE', #237 ) ;
#320 = CARTESIAN_POINT ( 'NONE',  ( 1.500000000000000888, 0.000000000000000000, 0.000000000000000000 ) ) ;
#321 = CC_DESIGN_APPROVAL ( #269, ( #239 ) ) ;
#322 = ORIENTED_EDGE ( 'NONE', *, *, #130, .T. ) ;
#323 = DIRECTION ( 'NONE',  ( 0.000000000000000000, 0.000000000000000000, 1.000000000000000000 ) ) ;
#324 = DIRECTION ( 'NONE',  ( -1.000000000000000000, -0.000000000000000000, -0.000000000000000000 ) ) ;
#325 = CARTESIAN_POINT ( 'NONE',  ( -1.614212418857619014, 0.000000000000000000, 0.000000000000000000 ) ) ;
#326 = EDGE_LOOP ( 'NONE', ( #205, #135, #322, #226 ) ) ;
#327 = PRODUCT_DEFINITION_SHAPE ( 'NONE', 'NONE',  #107 ) ;
#328 = EDGE_CURVE ( 'NONE', #56, #279, #54, .T. ) ;
#329 = AXIS2_PLACEMENT_3D ( 'NONE', #112, #225, #273 ) ;
#330 = DIRECTION ( 'NONE',  ( 0.000000000000000000, 0.000000000000000000, 1.000000000000000000 ) ) ;
#331 = LINE ( 'NONE', #233, #149 ) ;
#332 = AXIS2_PLACEMENT_3D ( 'NONE', #124, #26, #77 ) ;
#333 = CARTESIAN_POINT ( 'NONE',  ( -2.999999999999999556, 7.776507174585692163E-16, -6.349999999999999645 ) ) ;
#334 = ADVANCED_FACE ( 'NONE', ( #268 ), #132, .F. ) ;
#335 = CYLINDRICAL_SURFACE ( 'NONE', #25, 6.349999999999999645 ) ;
ENDSEC;
END-ISO-10303-21;
